1x1 Cuộn trang 1x1
chậm
nhanh
+/-
esc
Tốc độ
Dừng

Between The Bars - Elliott Smith

Elliott Smith
In 6/8 time. (it might be 3/4, but i think its 6/8.)
Am7: (x02213)
F9: (x(x)3213) you can play the a string if you desire
C: (x32010)
G6 (320000)
E: (022100)
F: (133211)
G: (320033)
Am: (x02210)
Fm: (133111)

INTRO:
[Am7]
[Am7]Drink up baby,
[F9]Stay up all night
With the [C]things you could do,
You [G6]won't but you might.
The [Am7]potential you'll be,
That [F9]you'll never see
The [C]promises [E]you'll [F]only make.
[Am7]Drink up with me now,
[F9]Forget all about
The [C]pressure of days
[G6]Do what I say
[Am7]And I'll make you okay,
[F9]Drive them away,
The [C]images [E]stuck in your [F]head:

[F]The people[G]
[Am]You've been (Riff 1) before that you
[F]Don't want[G]
[Am]Around any more
They [F]push, and [G]shove
[Am]And won't (Riff 2) bend to your will[F]
[F]I'll keep them [Fm]still.

Hợp âm còn lại như trên:
Drink up baby,
Look at the stars.
I'll kiss you again
Between the bars.
I keep seeing you there,
With your hands in the air
Waiting to finally be caught.
Drink up one more time,
And I'll make you mine.
Keep you apart,
Deep in my heart.
Separate from the rest
Where I like you the best
And keep the things you forgot.
The people you've been before
That you don't want around anymore
They push, and shove
And won't bend to your will.
I'll keep them still.
Kết thúc bằng [Fm].

RIFF 1:
[Am]              [F]        [Fm]
E |-0-0------------|-1----------1---|
B |-1-1------------|-2----------1---|
G |-2-2------------|-3----------3---|
D |-2-2-----0-2-3--|-3----------3---|
A |-0-0-2-3--------|-1----------1---|
E |-x-x------------|-1----------1---|

RIFF 2:
[Am]               [F]       [Fm]
E |-0-0------------|-1----------1---|
B |-1-1------------|-2----------1---|
G |-2-2------------|-3----------3---|
D |-2-2-------0-2--|-3----------3---|
A |-0-0-2-3-3------|-1----------1---|
E |-x-x------------|-1----------1---|

Hướng dẫn: Đặt hợp âm trong dấu ngoặc vuông, ngay trước (hoặc phía trên) chữ nhấn mạnh.
VD: Tuổi hồng thơ [C]ngây dưới mái [Am]trường...
Chú ý: Hiện tại bạn không thể lưu vì chưa Đăng nhập


Nguồn: hopamchuan.com

highlight chords
In 6/8 time. (it might be 3/4, but i think its 6/8.)
Am7: (x02213)
F9: (x(x)3213) you can play the a string if you desire
C: (x32010)
G6 (320000)
E: (022100)
F: (133211)
G: (320033)
Am: (x02210)
Fm: (133111)

INTRO:
[Am7]
[Am7]Drink up baby,
[F9]Stay up all night
With the [C]things you could do,
You [G6]won't but you might.
The [Am7]potential you'll be,
That [F9]you'll never see
The [C]promises [E]you'll [F]only make.
[Am7]Drink up with me now,
[F9]Forget all about
The [C]pressure of days
[G6]Do what I say
[Am7]And I'll make you okay,
[F9]Drive them away,
The [C]images [E]stuck in your [F]head:

[F]The people[G]
[Am]You've been (Riff 1) before that you
[F]Don't want[G]
[Am]Around any more
They [F]push, and [G]shove
[Am]And won't (Riff 2) bend to your will[F]
[F]I'll keep them [Fm]still.

Hợp âm còn lại như trên:
Drink up baby,
Look at the stars.
I'll kiss you again
Between the bars.
I keep seeing you there,
With your hands in the air
Waiting to finally be caught.
Drink up one more time,
And I'll make you mine.
Keep you apart,
Deep in my heart.
Separate from the rest
Where I like you the best
And keep the things you forgot.
The people you've been before
That you don't want around anymore
They push, and shove
And won't bend to your will.
I'll keep them still.
Kết thúc bằng [Fm].

RIFF 1:
[Am]              [F]        [Fm]
E |-0-0------------|-1----------1---|
B |-1-1------------|-2----------1---|
G |-2-2------------|-3----------3---|
D |-2-2-----0-2-3--|-3----------3---|
A |-0-0-2-3--------|-1----------1---|
E |-x-x------------|-1----------1---|

RIFF 2:
[Am]               [F]       [Fm]
E |-0-0------------|-1----------1---|
B |-1-1------------|-2----------1---|
G |-2-2------------|-3----------3---|
D |-2-2-------0-2--|-3----------3---|
A |-0-0-2-3-3------|-1----------1---|
E |-x-x------------|-1----------1---|