1x1 Cuộn trang 1x1
chậm
nhanh
+/-
esc
Tốc độ
Dừng

I Know

N/A
Irma - I Know

E [Em][Am][G#]---7------5------3-------|
B ---8------5------3-------|
G ---9------7------5-------|
D ---9------7------5-------|
A ---7------5------3-------|
E ---7------5------3-------|
Capo 2
Intro
E |--0---0---2---2---3---3---5---5--------------------------------------|
B |----0---0---0---0---0---0---5---0-1-----0h1^0-----1^0--4-----4-5-----|
G |--------------------------------------0---------0----------4---------|
D |--2-------1-------0-----------------2---------2----------4-----------|
A |--------------------------4-------0--------------------2-------------|
E |---------------------------------------------------------------------|
INTRO Picking
I'd like to tell you just a word
I am so sorry to disturb
You may be thinking i’m a fool
I heard you tell him you don't care
I heard you thinking loud and clear
Doesn't make me proud of you
I know your time it's precious
But give me just a second
I need to straighten things out with you
You put my hope and dreams away
And there is not a single day
I don't fear the words because of you
CHORUS
And I [Em]know ow oh oh [B]oh oh oh oh [C]oh
That is not a [B7]dreaaaam
But I [Em]saw ow oh oh [B]oh oh oh oh [C]oh
Yeah I saw your [B7]skin
And I [Em]know ow oh oh [B]oh oh oh oh [C]oh
[G]You
I [C]saw oh oh oh [B7]oh
INTRO Picking
I wonder if there's a justice
When I look right into your eyes
Those feelings never lie
My only weapon is the song
And you won't have to sing alone
This is the story of my life
CHORUS
And I [Em]know ow oh oh [B]oh oh oh oh [C]oh
That is not a [B7]dreaaaam
But I [Em]saw ow oh oh [B]oh oh oh oh [C]oh
Yeah I saw your [B7]skin
And I [Em]know ow oh oh [B]oh oh oh oh [C]oh
[G]You
I [C]saw oh oh oh [B7]oh
BRIDGE
[Em]I know I know [Am]I know I know [G#]I know I know [Am]I know I know
[Em]Yes I know [Am]I know I know [G#]I know I know [Am]I know I know
[Em]COs I saw [Am]I saw I saw I [G#]saw I saw you [Am]I saw you
[Em]Yes I know I [Am]know I know I [G#]know I know I [Am]know I know know
CHORUS
And I [Em]know ow oh oh [B]oh oh oh oh [C]oh
That is not a [B7]dreaaaam
But I [Em]saw ow oh oh [B]oh oh oh oh [C]oh
Yeah I saw your [B7]skin
And I [Em]know ow oh oh [B]oh oh oh oh [C]oh
[G]You
I [C]saw oh oh [B7]oh oh
Yeah I [Em]know

Hướng dẫn: Đặt hợp âm trong dấu ngoặc vuông, ngay trước (hoặc phía trên) chữ nhấn mạnh.
VD: Tuổi hồng thơ [C]ngây dưới mái [Am]trường...
Chú ý: Hiện tại bạn không thể lưu vì chưa Đăng nhập


Nguồn: hopamchuan.com

highlight chords
Irma - I Know

E [Em][Am][G#]---7------5------3-------|
B ---8------5------3-------|
G ---9------7------5-------|
D ---9------7------5-------|
A ---7------5------3-------|
E ---7------5------3-------|
Capo 2
Intro
E |--0---0---2---2---3---3---5---5--------------------------------------|
B |----0---0---0---0---0---0---5---0-1-----0h1^0-----1^0--4-----4-5-----|
G |--------------------------------------0---------0----------4---------|
D |--2-------1-------0-----------------2---------2----------4-----------|
A |--------------------------4-------0--------------------2-------------|
E |---------------------------------------------------------------------|
INTRO Picking
I'd like to tell you just a word
I am so sorry to disturb
You may be thinking i’m a fool
I heard you tell him you don't care
I heard you thinking loud and clear
Doesn't make me proud of you
I know your time it's precious
But give me just a second
I need to straighten things out with you
You put my hope and dreams away
And there is not a single day
I don't fear the words because of you
CHORUS
And I [Em]know ow oh oh [B]oh oh oh oh [C]oh
That is not a [B7]dreaaaam
But I [Em]saw ow oh oh [B]oh oh oh oh [C]oh
Yeah I saw your [B7]skin
And I [Em]know ow oh oh [B]oh oh oh oh [C]oh
[G]You
I [C]saw oh oh oh [B7]oh
INTRO Picking
I wonder if there's a justice
When I look right into your eyes
Those feelings never lie
My only weapon is the song
And you won't have to sing alone
This is the story of my life
CHORUS
And I [Em]know ow oh oh [B]oh oh oh oh [C]oh
That is not a [B7]dreaaaam
But I [Em]saw ow oh oh [B]oh oh oh oh [C]oh
Yeah I saw your [B7]skin
And I [Em]know ow oh oh [B]oh oh oh oh [C]oh
[G]You
I [C]saw oh oh oh [B7]oh
BRIDGE
[Em]I know I know [Am]I know I know [G#]I know I know [Am]I know I know
[Em]Yes I know [Am]I know I know [G#]I know I know [Am]I know I know
[Em]COs I saw [Am]I saw I saw I [G#]saw I saw you [Am]I saw you
[Em]Yes I know I [Am]know I know I [G#]know I know I [Am]know I know know
CHORUS
And I [Em]know ow oh oh [B]oh oh oh oh [C]oh
That is not a [B7]dreaaaam
But I [Em]saw ow oh oh [B]oh oh oh oh [C]oh
Yeah I saw your [B7]skin
And I [Em]know ow oh oh [B]oh oh oh oh [C]oh
[G]You
I [C]saw oh oh [B7]oh oh
Yeah I [Em]know