Cuộn trang
chậm
nhanh
+/-
esc
Tốc độ
Dừng

Kawak wo Akemu ( 美波「カワキヲアメク」- Domestic na Kanojo OP 1)

Cuộn trang




capo 2 
tone [Em] 
Intro: 
[Cmaj7] [D] [Em] [A] 
Let ring 
e|-----------|--------------2h3p2-----|-------------|--------- 
B|-0--------|------------------------3---|-0-----------|-2------- 
G|-0---0----|-----2---------------------|-0-----0----|-2------- 
D|----2---0-|-----0-----0---------------|-----2----0-|-2------- 
A|-3---------|-----0----------------------|-------------|---------- 
E|-----------|-----------------------------|-0----------|---------- 
Mijuku Mujou Saredo 
 
[Cmaj7] [D] 
e|----------0-----|---------0----| 
B|-----------------|------3-----| 
G|-------0----0--|--2-------| 
D|-----------------|0-------------| 
A|----3-----------|-------------| 
E|-----------------|------------| 
Utsuku-shi-ku areeeeeeeeeeeeeeeeeee 
 
e|---------| 
B|---------| 
G|---------| 
D|---------| 
A|---------| 
E|-x-x-x-x-| 
[Em] 
e|-0--7--5--3--2--3--2|---------| 
B|--------------------|---------| 
G|--------------------|---------| 
D|--------------------|---------| 
A|--------------------|---------| 
E|-0--7--5--3--2--3--2|---------| X3 
 
e|-0---5---7----|----<12>-----| 
B|-----0---0----|----<12>-----| 
G|--------------|-----<12>-----| 
D|--------------|-------------| 
A|--------------|-------------| 
E|-0------------|-------------| 
 
Verse 
[Gsus4]No Destiny [Bm7]fusawashiku nai 
[Em7]Konnan ja kitto mono tarinai 
Kurai [Bm7]katattokeba umaku iku 
[Gsus4]Mono, kane, ai, [Bm7]koto, mou jiko kenji [Em7][Bm7]akita 
[Gsus4]Dejabu nan ga [Bm7]sonna fuman nan da ? 
[Em]Sanzan wagamama katattoite kore [Bm7]ijou hoka ni nani ga iru ? 
[Gsus4]Sonna tokoro mo [Bm7]wari to kirai ja [Em][E]nai 
 
Bridge 
[Am7]Mou "kikiakitan da yo, [Gsus4]sono serifu." 
Chuuto [B11]hanpa dake wa iya 
Mou ii 
Chorus 
 
[Gsus4] 
Aa shite kou shite ittetatte 
[Bm7]Aishite dou shite ? iwaretatte 
[Em7]Asobi dake nara kantan de [Bm7]shinken koushou muchakucha de 
[Gsus4]Omoi mo shinai [Bm7]omoi kotoba 
Nan [E]do tsukaifurusu no ka ? 
Douse 
[Gsus4]Kitai shitetanda deki reisu demo 
[Bm7]Inyoudarake no fureizu mo 
[Em7]Kakato [Bm7]mochiagaru kotoba tabuu ni [Gsus4]shite 
Kuuki wo [Bm7]yonda ame [Gsus4]furanaide yo 
 
Outro 
[Gsus4] [Bm] [Em] [G] 
[Gsus4] [Bm] [Em] [G] 
[Gsus4] [Bm] [Em] [G] 
[Gsus4] [Bm] [Em] [G]