Cuộn trang
chậm
nhanh
+/-
esc
Tốc độ
Dừng

Main Actor(美波)

Cuộn trang




tone [D] 
Intro 1 
e|------------------------0-------------------------------0------- 
B|---3------3---3-3-------------3-----------3-----3-3---------3--- 
G|--------2---2-2-2----2-----2-----------2-----2--2-2---2---2----- x2 
D|------0-----------0-----------------0---------------0----------- 
A|---2------------------------------------------------------------ 
E|--------------2-3----------------0--------------2-3------------- 
Intro 2: Tự dẫn 
e|-2-------2-------2--------------------------|-2-------2-------2- 
B|-----3-------3-------3---3----------------|-----3-------3---3- 
G|---2---2---2---2---2---2-----2------x5-|---2---2---2---2-2- 
D|---------------------------0---0------------|-----------------0- 
A|---------0---------------2------------------|---------0--------- 
E|-3---------------2--------------------------|-3----------------- 
(Các bạn đàn y chang vậy đến hết khúc tự dẫn) 
 
[G]manga no [A/D]shujinkou [Em/D]no aitsu wa [G]*itta 
[G]"boku ga [A/D]omae wo [Em/D]mamoru kara" tte [G]*sa 
[G]hontou [A/D]kakkoii yo na [Em/D]shujinkoutte [G]*sa 
[G]boku to [A/D]ieba tada [Em/D]nigedasu dake [G]*no murabito B kurai ka na 
[G]iya na [A/D]kao hitotsu [Em/D]sezu waratte [G]*kage de wa naite 
[G][A/D]tatakatta sukutta [Em/D][G]
[G]aitsu wa [A/D]minna no [Em/D]ninkimono datta [G]*hiiroo datta atarimae 
[G]boku to [A/D]ieba tada [Em/D]shujinkou ni [G]*sugatte tayoru 
[G]murabito [A/D]C kurai ka [Em/D][G]*na 
 
Verse 1 (Hát) 
e|------------------------------|------------0-------------------- 
B|-3-3--3-3--3-3--3-3---------|--3-3--3-3--3-------------------- 
G|-2-2--2-2--2-2--2-2----x3-|--2-2--2-2--2-------------------- 
D|-0-0--2-2--0-0--0-0--------|--0-0--2-2--0-------------------- 
A|--------0-0-------2-2---------|---------0-0--2-------------------- 
E|-3-3-------2-2----------------|---3-3---------------------------- 
 
( Đánh như vậy đến chorus ) hoặc hợp âm 
[G]tada asa matteta [A/D]nani mo sezu [Em/D]boku wa hitori [G]*beddo no ue de 
[G]ippai no [A/D]suupu wo [Em/D]nominagara [G]
[G]terebi no mae de [A/D]mata onaji you [Em/D]na nyuusu wo [G]*minagara 
[G]mata itsumo [A/D]no heiwa wo [Em/D][G]*matteitanda 
 
Chorus 
[G]Hitotsu dake, [A/D]hitotsu dake, [Em/D]hitotsu dake, hitotsu [G]*dake 
[G]boku ga [A/D]koko ni iru [Em/D]shoumei [G]*wo 
[G]Boku ni shika, boku [A/D]ni shika, boku ni [Em/D]shika, boku ni [G]*shika 
[G]dekinai [A/D]koto no [Em/D]shoumei [G]*wo 
[Em/D]*Kimi datte, [G]*onaji datte, dare [G]datte, [A/D]matterutte 
[Em/D]*Boku datte, sore [G]*ga nani ka, [G]wakaranai kara utattendaro 
 
Interlude 
[G] [D]* [A#dim] [Em/D] x4 
 
Verse 2 
e|------------------------------|------------0-------------------- 
B|-3-3--3-3--3-3--3-3---------|--3-3--3-3--3-------------------- 
G|-2-2--2-2--2-2--2-2----x3-|--2-2--2-2--2-------------------- 
D|-0-0--2-2--0-0--0-0--------|--0-0--2-2--0-------------------- 
A|--------0-0-------2-2---------|---------0-0--2-------------------- 
E|-3-3-------2-2----------------|---3-3---------------------------- 
( Cũng như vậy các bạn đánh hết phần lời bài hát đến chorus ) 
[G]atarimae da to [A/D]omotteta asu ga kuru [Em/D]koto mo [G]*akiteita 
[G]mendou na koto [A/D]kirai datta [Em/D]shinpuru [G]*de yokatta 
[G]demo nazeka heya [A/D]ni aru gitaa dake [Em/D]wa [G]
[G][A/D][Em/D][G]*suterarenakatta 
 
Chorus 
[G]Sukoshi dake, [A/D]sukoshi dake, sukoshi [Em/D]dake, sukoshi [G]*dake 
[G]Ichijou demo [A/D]ibasho ga [Em/D][G]*hoshikatta 
[G]Boku dake ga, boku [A/D]dake ga, boku [Em/D]dake ga, boku dake [G]*ga 
[G]Dareka no [A/D]ichiban de [Em/D][G]*aritakatta 
 
Interlude 
[G] [D]* [A#dim] [Em/D] x4 
 
Bridge 
[G]Kawaranai yo, [A/D]kawaranai yo 
[Em/D]Kawarenai yo, [G]*kawarenai yo 
[G]Yappa boku wa [A/D]konna boku [Em/D]dakara [G]*[G]sa 
 
Solo: 
e|-2-------2-------2--------------------------|-2-------2-------2- 
B|-----3-------3-------3---3----------------|-----3-------3---3- 
G|---2---2---2---2---2---2-----2------x5-|---2---2---2---2-2- 
D|---------------------------0---0------------|-----------------0- 
A|---------0---------------2------------------|---------0--------- 
E|-3---------------2--------------------------|-3----------------- 
 
[G]Sukoshi dake, [A/D]sukoshi dake, [Em/D]sukoshi dake, sukoshi [G]*dake 
[G]Ichijou demo [A/D]ibasho ga [Em/D]hoshikatta [G]
 
Chorus 
[G]Hitotsu dake, [A/D]hitotsu dake, hitotsu [Em/D]dake, hitotsu [G]*dake 
[G]Boku ga koko [A/D]ni iru [Em/D]shoumei [G]*wo 
[G]Boku ni shika, boku [A/D]ni shika, boku ni [Em/D]shika, boku ni [G]*shika 
[G]Dekinai koto [A/D]no shoumei [Em/D][G]*wo 
 
Interlude 
[G] [D]* [A#dim] [Em/D] x4 
 
Chorus (Tiếp tục sau phần trống) 
[G]Boku dakara, boku [A/D]dakara, boku [Em/D]dakara, konna boku [G]*dakedo [G]sa 
[A/D][Em/D][G]*Aishiteokureyo 
 
[G][A/D][Em/D][G]*Yurushiteokureyo 
 
Outro 
[G] [D]* [A#dim] [Em/D] x4 
[G] [A/D] [Em/D] [G]* x2 
[Em/D] 

Loading...