1x1 Cuộn trang 1x1
chậm
nhanh
+/-
esc
Tốc độ
Dừng

Lucy In The Sky With Diamonds

The Beatles
A girl with [Fmaj7]caleido [Dm7]scope [C7sus4]ey es--- --
[Bb]C ellophane flowers of yellow [C]and green
[F]T owering over your [Bb]he ad
[C]Lo ok for the girl [G]with the sun in her [D7]e yes [Em7]and [D]she's go ne
CHORUS:
[G]Lu cy in the sky [C]wi th [D]diamo nds
[G]Lu cy in the sky [C]wit h [D]diamon ds
[G]Lu cy in the sky [C]wi th [D]diamond s, [A]ahhh hh
Follow her down to a bridge by the fountain
Where rocking horse people eat marshmallow pies
Everyone smiles as you drift past the flowers
That grow so incredibly high
Newspaper taxis appear on the shore
Waiting to take you away
Climb in the back with your head in the clouds
And you're gone...CHORUS
Picture yourself on a train in a station
With plasticine porters with looking glass ties
Suddenly someone is there at the turnstile
The girl with caleidoscope eyes...CHORUS TWICE
MAIN RIFF:
E -----0---0-------0---------------0---0-------0-------------
B ---------------------3p2-----------------------1-1-----0---
G ---2---0---2---2---------2-----2---0---2---2---2-2-2-2-----
D -2-----------4-----3---------2-----------4-----3---3-------
A -----------------------------------------------------------
E -----------------------------------------------------------

Hướng dẫn: Đặt hợp âm trong dấu ngoặc vuông, ngay trước (hoặc phía trên) chữ nhấn mạnh.
VD: Tuổi hồng thơ [C]ngây dưới mái [Am]trường...
Chú ý: Hiện tại bạn không thể lưu vì chưa Đăng nhập


Nguồn: hopamchuan.com

highlight chords
A girl with [Fmaj7]caleido [Dm7]scope [C7sus4]ey es--- --
[Bb]C ellophane flowers of yellow [C]and green
[F]T owering over your [Bb]he ad
[C]Lo ok for the girl [G]with the sun in her [D7]e yes [Em7]and [D]she's go ne
CHORUS:
[G]Lu cy in the sky [C]wi th [D]diamo nds
[G]Lu cy in the sky [C]wit h [D]diamon ds
[G]Lu cy in the sky [C]wi th [D]diamond s, [A]ahhh hh
Follow her down to a bridge by the fountain
Where rocking horse people eat marshmallow pies
Everyone smiles as you drift past the flowers
That grow so incredibly high
Newspaper taxis appear on the shore
Waiting to take you away
Climb in the back with your head in the clouds
And you're gone...CHORUS
Picture yourself on a train in a station
With plasticine porters with looking glass ties
Suddenly someone is there at the turnstile
The girl with caleidoscope eyes...CHORUS TWICE
MAIN RIFF:
E -----0---0-------0---------------0---0-------0-------------
B ---------------------3p2-----------------------1-1-----0---
G ---2---0---2---2---------2-----2---0---2---2---2-2-2-2-----
D -2-----------4-----3---------2-----------4-----3---3-------
A -----------------------------------------------------------
E -----------------------------------------------------------