1x1 Cuộn trang 1x1
chậm
nhanh
+/-
esc
Tốc độ
Dừng

Rock N Roll

Avril Lavigne
[Cm]  I don’t [Bb]care
about my makeup
I like it better with
my [G#]jeans all ripped
up [Cm] Don’t know [Bb]how to
keep my mouth shut
[Eb]  You say [G#] "so
what?" (what)
[Cm]  I don’t [Bb]care if
I’m a misfit
[Eb]I like it better
than the [G#]hipster
bullshit [Cm] I am the
[Bb]motherfucking princess
[Eb]  You still [G#]love it (yeah)
Refrain 1:
[Cm]Some some how
[Bb]It’s a little
different when
[Eb]I’m with you
[G#]You know what
I really am
[Cm]All about
[Bb]You know how
it really goes
[Eb]  Oh oh [G#]oh oh yeah
[Cm]Some some way
[Bb]Oh We’ll be getting
out of this
[Eb]Town one day
[G#]You’re the only
one that I
[Cm]Want with me
[Bb]You know how
the story goes
[Eb]  Oh oh [G#]oh
Chorus 1:
When it’s [Cm]you and [Bb]me
We don’t [Eb]need no one
to [G#]tell us who to [Cm]be
We’ll keep [Bb]turning
up the [Eb][G#]radio
What if [Cm]you and [Bb]I
Just put [Eb]up a middle
[G#]finger to the [Cm]sky
Let them [Bb]know that
we’re still [Eb]rock and [G#]roll
Rock and roll
[Cm]Hey  [Bb]hey  [Eb]hey
[G#]Rock and roll
[Cm]Hey  [Bb]hey  [Eb]hey[G#]
Verse 2:
[Cm] [C]all it a [Bb]bad
attitude dude
[Eb]I ain't never
gonna [G#]cover up that
tattoo [Cm] I might [Bb]have
a couple issues
[Eb]  You say [G#]"me too" (yeah)
[Cm] [D]on’t care [Bb]about
a reputation (nuh uh)
[Eb]Must be living in
the [G#]wrong generation
[Cm]  This is your [Bb]invitation
[Eb]  Let's get [G#]wasted (yeah)
Refrain 2:
[Cm]Some some how
[Bb]It’s a little
different when
[Eb]I’m with you
[G#]You know what
I really am
[Cm]All about
[Bb]You know how
it really goes
[Eb]  Oh oh [G#]oh
Chorus 2:
When it’s [Cm]you and [Bb]me
We don’t [Eb]need no one
to [G#]tell us who to [Cm]be
We’ll keep [Bb]turning
up the [Eb][G#]radio
What if [Cm]you and [Bb]I
Just put [Eb]up a middle
[G#]finger to the [Cm]sky
Let them [Bb]know that
we’re still [Eb]rock and [G#]roll
Rock and roll
[Cm]Hey  [Bb]hey  [Eb]hey
[G#]Rock and roll
[Cm]Hey  [Bb]hey  [Eb]hey[G#]
Bridge: Guitar Solo
Rock and [Cm][Bb]roll
[Eb][G#]Yeah
[Cm]  Oh oh [Bb] oh
oh Yeah
Oh yeah
oh Yeah
Guitar Solo:
e|-------------------------------|
B|-------------------------------|
G|-3/5-5-5-5-5-5-5-5-5-5-5-5-3---|
D|-----------------------------5-|
A|-------------------------------|
E|-------------------------------|
e|-----------------------------------|
B|-----------------------------------|
G|-3/5-5-5-5-5-5-5-5-3---------------|
D|---------------------5-3-----3-5---|
A|-------------------------6-6-----6-|
E|-----------------------------------|
e|-------------------15----16-15-------|
B|-13-13-13-13-13-13----16-------18-16-|
G|-------------------------------------|
D|-------------------------------------|
A|-------------------------------------|
E|-------------------------------------|
e|-------------------18----20-|
B|-20-20-20-20-20-20----20----|
G|----------------------------|
D|----------------------------|
A|----------------------------|
E|----------------------------|
Chorus 3:
Acoustic:
When it’s [Cm]you and [Bb]me
We don’t [Eb]need no one
to [G#]tell us who to [Cm]be
We’ll keep [Bb]turning
up the [Eb]radio
Distortion:
[Cm]  What if you and [Bb]I
Just put [Eb]up a middle
[G#]finger to the [Cm]sky
Let them [Bb]know that
we’re still [Eb]rock and [G#]roll
Chorus 4:
When it’s [Cm]you and [Bb]me
We don’t [Eb]need no one
to [G#]tell us who to [Cm]be
We’ll keep [Bb]turning
up the [Eb][G#]radio
What if [Cm]you and [Bb]I
Just put [Eb]up a middle
[G#]finger to the [Cm]sky
Let them [Bb]know that
we’re still [Eb]rock and [G#]roll
Rock and roll
[Cm]Hey  [Bb]hey  [Eb]hey
(We're gonna
show them)
[G#]Rock and roll
[Cm]Hey  [Bb][Eb][G#]hey

Hướng dẫn: Đặt hợp âm trong dấu ngoặc vuông, ngay trước (hoặc phía trên) chữ nhấn mạnh.
VD: Tuổi hồng thơ [C]ngây dưới mái [Am]trường...
Chú ý: Hiện tại bạn không thể lưu vì chưa Đăng nhập


Nguồn: hopamchuan.com

highlight chords
[Cm]  I don’t [Bb]care
about my makeup
I like it better with
my [G#]jeans all ripped
up [Cm] Don’t know [Bb]how to
keep my mouth shut
[Eb]  You say [G#] "so
what?" (what)
[Cm]  I don’t [Bb]care if
I’m a misfit
[Eb]I like it better
than the [G#]hipster
bullshit [Cm] I am the
[Bb]motherfucking princess
[Eb]  You still [G#]love it (yeah)
Refrain 1:
[Cm]Some some how
[Bb]It’s a little
different when
[Eb]I’m with you
[G#]You know what
I really am
[Cm]All about
[Bb]You know how
it really goes
[Eb]  Oh oh [G#]oh oh yeah
[Cm]Some some way
[Bb]Oh We’ll be getting
out of this
[Eb]Town one day
[G#]You’re the only
one that I
[Cm]Want with me
[Bb]You know how
the story goes
[Eb]  Oh oh [G#]oh
Chorus 1:
When it’s [Cm]you and [Bb]me
We don’t [Eb]need no one
to [G#]tell us who to [Cm]be
We’ll keep [Bb]turning
up the [Eb][G#]radio
What if [Cm]you and [Bb]I
Just put [Eb]up a middle
[G#]finger to the [Cm]sky
Let them [Bb]know that
we’re still [Eb]rock and [G#]roll
Rock and roll
[Cm]Hey  [Bb]hey  [Eb]hey
[G#]Rock and roll
[Cm]Hey  [Bb]hey  [Eb]hey[G#]
Verse 2:
[Cm] [C]all it a [Bb]bad
attitude dude
[Eb]I ain't never
gonna [G#]cover up that
tattoo [Cm] I might [Bb]have
a couple issues
[Eb]  You say [G#]"me too" (yeah)
[Cm] [D]on’t care [Bb]about
a reputation (nuh uh)
[Eb]Must be living in
the [G#]wrong generation
[Cm]  This is your [Bb]invitation
[Eb]  Let's get [G#]wasted (yeah)
Refrain 2:
[Cm]Some some how
[Bb]It’s a little
different when
[Eb]I’m with you
[G#]You know what
I really am
[Cm]All about
[Bb]You know how
it really goes
[Eb]  Oh oh [G#]oh
Chorus 2:
When it’s [Cm]you and [Bb]me
We don’t [Eb]need no one
to [G#]tell us who to [Cm]be
We’ll keep [Bb]turning
up the [Eb][G#]radio
What if [Cm]you and [Bb]I
Just put [Eb]up a middle
[G#]finger to the [Cm]sky
Let them [Bb]know that
we’re still [Eb]rock and [G#]roll
Rock and roll
[Cm]Hey  [Bb]hey  [Eb]hey
[G#]Rock and roll
[Cm]Hey  [Bb]hey  [Eb]hey[G#]
Bridge: Guitar Solo
Rock and [Cm][Bb]roll
[Eb][G#]Yeah
[Cm]  Oh oh [Bb] oh
oh Yeah
Oh yeah
oh Yeah
Guitar Solo:
e|-------------------------------|
B|-------------------------------|
G|-3/5-5-5-5-5-5-5-5-5-5-5-5-3---|
D|-----------------------------5-|
A|-------------------------------|
E|-------------------------------|
e|-----------------------------------|
B|-----------------------------------|
G|-3/5-5-5-5-5-5-5-5-3---------------|
D|---------------------5-3-----3-5---|
A|-------------------------6-6-----6-|
E|-----------------------------------|
e|-------------------15----16-15-------|
B|-13-13-13-13-13-13----16-------18-16-|
G|-------------------------------------|
D|-------------------------------------|
A|-------------------------------------|
E|-------------------------------------|
e|-------------------18----20-|
B|-20-20-20-20-20-20----20----|
G|----------------------------|
D|----------------------------|
A|----------------------------|
E|----------------------------|
Chorus 3:
Acoustic:
When it’s [Cm]you and [Bb]me
We don’t [Eb]need no one
to [G#]tell us who to [Cm]be
We’ll keep [Bb]turning
up the [Eb]radio
Distortion:
[Cm]  What if you and [Bb]I
Just put [Eb]up a middle
[G#]finger to the [Cm]sky
Let them [Bb]know that
we’re still [Eb]rock and [G#]roll
Chorus 4:
When it’s [Cm]you and [Bb]me
We don’t [Eb]need no one
to [G#]tell us who to [Cm]be
We’ll keep [Bb]turning
up the [Eb][G#]radio
What if [Cm]you and [Bb]I
Just put [Eb]up a middle
[G#]finger to the [Cm]sky
Let them [Bb]know that
we’re still [Eb]rock and [G#]roll
Rock and roll
[Cm]Hey  [Bb]hey  [Eb]hey
(We're gonna
show them)
[G#]Rock and roll
[Cm]Hey  [Bb][Eb][G#]hey